Startseite
    News
    Zitate: Lebensmotto
    Zitate: Menschheit
  Archiv
  -> Hall of Fame (Guitar)
  ChuChuRocket Lösung
  ->Bilder
  ->Yann Tiersen
  ->Canon
  Gästebuch
  Kontakt
 




https://myblog.de/drunken-donut

Gratis bloggen bei
myblog.de





Johann Pachelbel (* August 1653 in Nürnberg; † 3. März 1706 in Nürnberg) war ein bedeutender Komponist des Barock. Neben seiner Tätigkeit als Komponist war Pachelbel Organist unter anderem in Wien, Eisenach, Erfurt, Stuttgart, Gotha und ab 1695 an der Sebalduskirche in Nürnberg.

Das populärste Werk Pachelbels ist der Kanon aus Kanon und Gigue in D-Dur. Es handelt sich um den einzigen von ihm komponierten Kanon, er ist deshalb nicht repräsentativ für Pachelbels Gesamtwerk. Vom Kanon existieren heute unzählige Aufnahmen, Versionen und Bearbeitungen. Das Musikstück basiert auf einer permanent wiederholten Bassfigur (Ostinato). Die zweitaktige Akkordfolge D - A - h - fis / G - D - G - A des Kanons wird insgesamt 28 Mal wiederholt. Dabei entsteht ein ausgewogenes klangliches und harmonisches Gefüge, ein gleichzeitiges Miteinander von Pachelbels oft gerühmter Kantabilität, von Variationskunst und strenggefügter Kontrapunktik.

 

 

Hier gibts Infos zu Stück Canon C/Rock

Die Rock version von JerryC




Gitarren Tab Text (ASCII)

 

Die Rock version von JerryC auf dem Piano.

(achtet mal auf die Finger am start XD)

 

Hier noch einmal die Klassik Version auf dem Klavier

 

 

Hier eine akustik version (respekt ohne anschlag)

 

Kein Tab vorhanden.

 

Eine normale Akustik version

Power Tab

 

------------------------

Canon in d TAB als Courir New Font abspeichern

CANON IN D
Johann Pachelbel
(Released 1693)


Gtr I (D A D G B E) - 'Classical (drop D)'

Q=82
D A Bm F#m
4/4
Gtr I
|-------2-(2)-------|---------------------|
|-----3-----------2-|-(2)-----3-(3)-----2-|
|---2-----------2---|-------4---------2---|
|-0-----------2-----|-----4---------4-----|
|----------0--------|--2------------------|
|-------------------|------------4--------|


G D G A
|---------------------|---------------------|
|-(2)-----0-(0)-----3-|-(3)-----3-(3)-----2-|
|-------0---------2---|-------4---------2---|
|-----0---------4-----|-----5---------2-----|
|---------------------|------------0--------|
|--5---------0--------|--5------------------|


D A Bm F#m G D G A
|-2-------0-------|-----------------|-----------------|------------------|
|-------3-----2---|-3-------2-------|-0---------------|-0-----0-2-----2--|
|-----2-----2-----|-----4-------2---|-----0---2-------|-----0-------2----|
|---0-----------2-|---4---4---4---4-|---0---0-----4---|---0-------2------|
|---------0-------|-2---------------|-----------5---5-|---------0--------|
|-0---------------|---------4-------|-5-------0-------|-5----------------|


D A Bm F#m G D G A
|-2-------0-------|-----------------|-----------------|------------------|
|-3---3---2---2---|-3-------2-------|-0---------------|-0-----0-2-----2--|
|---2-------2-----|-4---4---2---2---|-0---0---2-------|-0---0---2---2----|
|-------0-------2-|---4-------4---4-|---0---0-4---4---|---0-------2------|
|---------0-------|-2-----2---------|-----------5---5-|---------0--------|
|-0---------------|---------4-------|-5-------0-------|-5----------------|


D A Bm F#m G D G A
|-----2---5---3---|-2-------2------|-----------------|------------------||
|-3---3---------2-|-----3-------5--|-3---0---3-------|-3-------3---2----||
|---2---2-----2---|-----4-------2--|-----0-------2---|-----4-------2----||
|-0---------2-----|---4---4---4----|---0---0---4---4-|---5---5---2---2--||
|---------0-------|-2--------------|-------------5---|---------0--------||
|-----------------|---------4------|-5-------0-------|-5---5------------||


D A Bm F#m G D G A
|-------------------|-------------5-7-|-----------0-----|------------------|
|-3-2-3-------------|---3-2-0---7-----|-8-7-5-8-7---3-2-|-0----------------|
|-------------2-----|---------6-------|-----------------|---2-0-----0------|
|-------0-(0)---2-4-|-0---------------|-----------------|-------4-2---4-2--|
|----------0--------|-2---------------|-----------------|---------0--------|
|-0-----------------|---------4-------|-5-------0-------|-5----------------|


D A Bm F#m G D G A
|-----------------|-----------------|-----------------|------------------|
|-----------------|-----------------|-----------------|-------0----------|
|-------0-2---2-0-|---4-2---2-------|-0-----0---------|-0-------2-4-2-0--|
|-0-2-4-----2-----|-4-----5---5-4-2-|---4-2---4-2-0-4-|---4-2------------|
|---------0-------|-2---------------|-----------------|---------0--------|
|-0---------------|---------4-------|-5-------0-------|-5----------------|


D A Bm F#m G D G A
|-------2---0-------|---------2-------|-7-------5-------|-7-------5--------||
|---------3-2---2---|-3---------------|-----0-------7-5-|-----0-----5------||
|-(0)---2-----2---0-|-----4-------2---|-------0---------|-------0-----6----||
|-----0-------------|---4---4---4---2-|---0-------0-----|---0-----------7--||
|-----------0-------|-2---------------|-----------------|---------0--------||
|--0----------------|---------4-------|-5-------0-------|-5----------------||


D A Bm F#m
|-5-2-3-5-2-3-5---------0-2-3-|-2-----2----------------------|
|-----------------0-2-3-------|---3-5---------0--------------|
|---------------2-------------|-----------0-2---2-0-2---0-2--|
|-----------------------------|---------4-------------4------|
|-------------0---------------|-2----------------------------|
|-0---------------------------|-------------4----------------|


G D G A
|-----------------------------|-----------------------2-3-5--|
|---0-----------------------0-|---0---0-2-3---0-2-3-5--------|
|-0---2-0---------------0-2---|-0---2-------2----------------|
|---------4-2-4-2-0-2-4-------|------------------------------|
|-----------------------------|-------------0----------------|
|-0-----------0---------------|-5----------------------------|


D A Bm F#m
|-2---0-2-0---0-----0-2-0-----|-------------------------------|
|---3-------3---2-3-------3-2-|-3---2-3----------------3-2s3--|
|-----------------------------|---4---------------------------|
|-----------------------------|-----------2-4-/5-4-2-4--------|
|-------------0---------------|-2-------5---------------------|
|-0---------------------------|-------------4-----------------|


G D G A
|-----------------------------|------------------------------|
|---3---0---------------0-2-3-|---3---3---0-2-3-5-3-2-3-0-2--|
|-4---6---2-0-2-0---0-2-------|-4---6---6--------------------|
|-----------------4-----------|------------------------------|
|-----------------------------|-------------0----------------|
|-5-----------0---------------|-5----------------------------|


D A Bm F#m
|-^2---0-2---^0-----0---|-----------------------|
|-^3-3-----3-^2-2-3---2-|-^3---2-3---^2---------|
|-^2---------^2---------|-^4-4-----4-^2-2-------|
|-----------------------|-^4---------^4---5-4-2-|
|-------------0---------|--2--------------------|
|--0--------------------|-------------4---------|


G D G A
|-----------------------|----------------------|
|-^0--------------------|-^0-0-----------------|
|-^0-0-----0-^2-------2-|-^0---2-0-----2-------|
|-^0---4-2---^4---2-4---|-^0-------4-2---5-4-2-|
|------------^5-5-------|------------0---------|
|--5----------0---------|--5-------------------|


D A Bm F#m
|---------------------|-------2---2-2-------|
|---3-2-3-------0-2---|---3-5---3-----5-3-2-|
|-----------2-2-----2-|---------------------|
|-4-------4-----------|-4-------------------|
|-----------0---------|-2-------------------|
|-0-------------------|-----------4---------|


G D G A
|-------------2-0---2S|=3-----------------||
|-0-0---0-2-3-----3---|---3-------------2-||
|-----2---------------|-----6-4-4-2---2-2-||
|---------------------|-------------2---2-||
|---------------------|-----------0-------||
|-5---------0---------|-5-----------------||


D A Bm F#m G D G A
|-2-----2-^2-3-2---|------------------|-------0-2---0---|------------------|
|-3-------^2-----5-|-^3-----3-3-5-3-2-|-0---0---3---3---|-3-------------2--|
|-2---2---^2-------|-^4---4---2-------|-0-0-------2---2-|-0-5-4-5-2---2----|
|---0-----^2-------|-^4-4-------------|-0---------------|-0-------2-2------|
|---------^0-------|-^2---------------|-----------------|---------0--------|
|-0----------------|----------4-------|-5-------0-------|-5----------------|


D A Bm F#m G D G A
|-------5-5-7-5-3-|-2---------------|-----------------|--------------------|
|-------7-7-8-7-5-|-3-----3-3-5-3-2-|-3---------------|-3-------(2)-----2--|
|-----7-----------|-4---4-----------|---5-4-5-2---2---|-0-5-4-5--2----2----|
|---0-------------|---4-------------|-----------4---0-|-0-----------2------|
|---------0-------|-2---------------|-----------------|----------0---------|
|-0---------------|---------4-------|-5-------0-------|-5------------------|


D A Bm F#m G D G A
|-------------7------|-----10--------9---|-7-------5-------|-7-------^5-5------|
|-----7-10-10---10-8-|-7------7-10p7---7-|-------0-------7-|-----0---^5---5----|
|---7----------------|---7---------------|-----7-------7---|-------0-^6-----6--|
|--------------------|-------------------|---0-------0-----|---0-----^7--------|
|--------------------|-----------9-------|-----------------|---------^0--------|
|-0---------7--------|-9-----------------|-5-------0-------|-5-----------------|


D A Bm F#m
|-2-----------------|-------------------|
|-3-----3-(3)---2---|-3-------------1---|
|-2---2-------2-----|-4---4---------2---|
|---0-------------2-|-4-4---4-(4)-----0-|
|----------0--------|-2-----------0-----|
|-0-----------------|----------4--------|


G D
|-----------------|-0---------------|-------*|
|-0-----3-----3---|-0-0-----2tr3----|-^3----*|
|-0---0---2-----2-|-0---0---2-------|-^2----*|
|-0-0-------4-----|-------0-2-------|-^4----*|
|-----------------|---------0-------|-^0----*|
|-5-------0-------|-5---------------|-^0----*|


Tablature Legend
----------------
h - hammer-on
p - pull-off
b - bend
pb - pre-bend
r - bend release (if no number after the r, then release immediately)
/ - slide into or out of (from/to "nowhere"
s - legato slide
S - shift slide
- natural harmonic
[n] - artificial harmonic
n(n) - tapped harmonic
~ - vibrato
tr - trill
T - tap
TP - trem. picking
PM - palm muting
n/ - tremolo bar dip; n = amount to dip
n - tremolo bar down
n/ - tremolo bar up
/n - tremolo bar inverted dip
= - hold bend; also acts as connecting device for hammers/pulls
<> - volume swell (louder/softer)
x - on rhythm slash represents muted slash
o - on rhythm slash represents single note slash

Misc Legend
-----------
| - bar
|| - double bar
||o - repeat start
o|| - repeat end
*| - double bar (ending)
: - bar (freetime)
$ - Segno
& - Coda
Tempo markers -
= BPM(8/16=s8/s16), where s8 = swing 8ths, s16 = swing 16ths




Verantwortlich für die Inhalte ist der Autor. Dein kostenloses Blog bei myblog.de! Datenschutzerklärung
Werbung