Startseite
    News
    Zitate: Lebensmotto
    Zitate: Menschheit
  Archiv
  -> Hall of Fame (Guitar)
  ChuChuRocket Lösung
  ->Bilder
  ->Yann Tiersen
  ->Canon
  Gästebuch
  Kontakt
 




https://myblog.de/drunken-donut

Gratis bloggen bei
myblog.de





Ein musik Tipp

ich finde er macht geniale melodien
was die Texte angeht weiß ichs nicht.

 

Geboren wurde Yann Tiersen am 23. Juni 1970 in Brest in der Bretagne und wuchs in Rennes auf. Heute lebt er in Paris. Seit seinem 6. Lebensjahr spielt er Geige und Klavier. Als Jugendlicher spielte er in einigen lokalen Post Punk-Bands Gitarre, nach eigenen Angaben wesentlich beeinflusst von Joy Division und The Stooges. Er studierte an den Musikhochschulen in Rennes, Nantes und Boulogne und gilt als begabter Multi-Instrumentalist.

Außerhalb Frankreichs wurde Tiersen ab 2001 insbesondere durch seine Soundtracks zu den Kinofilmen „Die fabelhafte Welt der Amélie“ und „Good bye, Lenin!“ bekannt.

 

Die Musik zum film "Good bye, Lenin!"-

Comptine d'un autre été L'après midi

 

 

Ein weiterer Song von ihm. Monochrome.

 

Die Musik zum Film "Die zauberhafte Welt der Amelie" - Aquai

 

------------------------

Comptine d'un autre été L'après midi TAB

----------------------------------------------------------------------------
----------------------------------------------------------------------------
----------------------------------------------------------------------------
---2------2-------0------0--------0---------0--------0--------0----------
-----2--2---2--2--2--2---2---2----2---2----2---2---0---0---0----0-----
-------3------3------3-------3---------2---------2--------2--------2-----

-------------------------------------------------------------------------------------------------------------------------------------------------
-------------------------------------------------------------------------------------------------------------------------------------------------
--------4-5-4---------------------------------4-5-4-------------------------9-------7------11----11-------12------12-------11------11----
-5-4-5-----------4-5-4--5-7-5-------4-2-4----------4-2-4----------------9-------9--------9-----7-------14--------12-------12------12--
-------------------------------------------------------------------------------------------------------------------------------------------------
-------------------------------------------------------------------------------------------------------------------------------------------------

-------------------------------------------------------------------------------------------------------------------------------------------------
-------------------------------------------------------------------------------------------------------------------------------------------------
-----4----4----4----4----------------4----4----4----4--------------2------2------2------2----------------2------2------2------2------------
---2----2----2----2-----2---2----0----0----0----0------0------0------0------0------0------0---0----0------0------0------0----------------
-2----2----2----2----2---3----2-----2----2----2-----2---0-------------------------------------------0------0------0------0-----------------
-------------------------------------------------------------------2-------2------2------2------2---3------------------------------------------

------------------------




Verantwortlich für die Inhalte ist der Autor. Dein kostenloses Blog bei myblog.de! Datenschutzerklärung
Werbung